Was a Sunny Day

В последнем куплете аккорды C, G и D7 заменяются на C9, G9 и D9 и
играются с арпеджио. Проигрыши немного не соответствуют оригиналу.

                    C                                   G
|-----------------|---8-------------|---12----10--8---|---7-------------|
|-----------------|-----------------|-----------------|-----------------|
|---------------5-|/9------------10-|/12----10----9---|-7---------------|
|-----------------|-----------------|-----------------|-----------------|
|-----------------|-----------------|-----------------|-----------------|
|-----------------|-----------------|-----------------|-----------------|

                    D7                                  G
|-----7-------7---|-----------------|-----------------|-----------------|
|-------8-----8---|---7-------------|---7-------------|-----3-3-5-3---3-|
|---7-----7-------|-7---6-5---------|-7---6-5---------|---4-----5-4-4-4-|
|-----------------|-------7---------|-------7---7-----|-5-----------5---|
|-----------------|-----------------|-----------------|-----------------|
|-----------------|-----------------|-----------------|-----------------|

            C
Was a sunny day
                  G
Not a cloud was in the sky
                D7
Not a negative word was heard
                  Em
From the people passing by
      G     C
Was a sunny day
                  G
All the birdies in the trees
                   D7
And the radio's singing song
                     G
All the favorite melodies.

           Am       D
He was a navy man
                G      E
Stationed in Newport News
              Am
She was a high school queen
        D             C            G
With nothing really left to lose
E             Am
She was a high school queen
        D             C            G
With nothing really left to lose

Припев

               Am     D
Her name was Lorelei
             G       E
She was his only girl
                 Am
She called him Speedoo
            D                C         G
But his Christian name was Mister Earl
E                Am
She called him Speedoo
            D                C         G
But his Christian name was Mister Earl

Припев

            C9
Was a sunny day
                  G9
Not a cloud was in the sky
                D9
Not a negative word was heard
                        G
From the people passing by

  C                                   G
|-----------------|-----------------|-----------------|-----------------|
|-----------------|-----------------|-----------------|-----------------|
|---------------0-|-----------------|---0-------------|-----------------|
|-----------0h2---|---------------1-|h2-------0-------|-----------------|
|-3---------------|-----------------|-----1h2---0-----|-----------------|
|-----------------|-----------------|-------------2h3-|-----------------|

  D7                                  G
|-----------------|-----------------|-----------------|-----------------|
|-----------------|-----------------|-----------------|-----------------|
|-----------------|---2-------------|-----------------|---------------5-|
|---------0-------|/4---4-0---------|-------0-2p0-----|-----------------|
|-0---------------|-----------------|---1h2-------1h2-|-----------------|
|-----------------|-----------------|-3---------------|-----------------|

  C                                     G
|---8-----10--------|---12----10--8---|---7-------------|-7-------7-------|
|-------------------|-----------------|-----8-----------|---8---8-----8---|
|/9-----10----10/12-|-------10----9---|-7-----7-------7-|-----7-------7---|
|-------------------|-----------------|-----------------|-----------------|
|-------------------|-----------------|-----------------|-----------------|
|-------------------|-----------------|-----------------|-----------------|

  D7                                  G
|-----------------|-----------------|-----------------|-----------------|
|---7-------------|---7-------------|-----------------|-----------------|
|-7---6-5---------|-7---6-5---------|-----------------|-------------0---|
|-------7---------|-------7---7-----|-------0-2p0-----|-------0-1h2-----|
|-----------------|-----------------|---1h2-------1h2-|---2h3-----------|
|-----------------|-----------------|-3---------------|-----------------|

  C                                   G
|-------0---------|-------0---------|-------3---------|-------3---------|
|-------1---------|-------1---------|-------0---------|-------0---------|
|-------0---------|-------0---------|-------0---------|-------0---------|
|---0h2-----------|---0h2-----------|---0-------------|---0-------------|
|-3---------------|-3---------------|-----------------|-----------------|
|-----------------|-----------------|-3---------------|-3---------------|
Пол Саймон
"There Goes Rhymin' Simon", 1973