The Only Living Boy in New York

Играется на 12-струнной гитаре, опущенной на полтона.
Здесь показана только гитара, без басовой темы.

   C
e-|--0-----------0-----------0--0--------0-----------|
B-|--1-----------1-----------1--1--------1-----------|
G-|--0-----0--0--0-----0--0--0--0--0--0--0-----0--0--|
D-|--2-----2--2--2-----2--2--2--2--2--2--2-----2--2--|
A-|--3-----3--3--3-----3--3--3-----3--3--3-----3--3--|
E-|--------------------------------------------------|

e-|--0-----------0-----------0-----------0-----------|
B-|--1-----------1-----------1-----------1-----------|
G-|--0-----0--0--0-----0--0--0-----0--0--0-----0--0--|
D-|--2-----2--2--2-----2--2--2-----2--2--2-----2--2--|
A-|--3-----3--3--3-----3--3--3-----3--3--3-----3--3--|
E-|--------------------------------------------------|
    Tom,                       get your plane right on
    Tom,                       get your plane right on

 F/C
e-|--1-----------1-----------------------------------|
B-|--1-----------1-----------1-----------1-----------|
G-|--2-----2--2--2--------2--2--2--2--2--2--2--2--2--|
D-|--3-----3--3--3--------3--3--3--3--3--3--3--3--3--|
A-|--3-----3--3--3-----------3-----------3-----------|
E-|--------------------------------------------------|
         time.
         time.

  C
e-|--------------0-----------------------0-----------|
B-|--------------1-----------------------1-----------|
G-|--0-----0-----0-----0-----0-----0-----0-----0-----|
D-|--2--2--2--2--2--2--2--2--2--2--2--2--2--2--2--2--|
A-|--3--3--3--3--3--3--3--3--3--3--3--3--3--3--3--3--|
E-|--------------------------------------------------|
     I    know                 your part'll    go
     I    know                 you've been     eager

 F/C
e-|--------------1-----------------1-----------1-----|
B-|--------------1-----------------1-----------1-----|
G-|--2-----2-----2-----------2--2--2-----2--2--2-----|
D-|--3--3--3--3--3--------3--3--3--------3--3--------|
A-|--3--3--3--3--3--------3--3-----------3-----------|
E-|--------------------------------------------------|
   fine.
   to fly         now.

  C
e-|--------------0-----------------------0-----------|
B-|--------------1-----------------------1-----------|
G-|--0-----0-----0-----0-----0-----0-----0-----0-----|
D-|--2--2--2--2--2--2--2--2--2--2--2--2--2--2--2--2--|
A-|--3--3--3--3--3--3--3--3--3--3--3--3--3--3--3--3--|
E-|--------------------------------------------------|
    Fly                        down  to  Me-  xi-
    Hey                        let your hones- ty

     F          F/E         Dm7        Dm7/C
e-|--------1--1--------1--1--------1--1--------1--1--|
B-|--------1--1--------1--1--------1--1--------1--1--|
G-|--------2-----------0-----------2-----------2-----|
D-|--3-----------2-----------0-----------------------|
A-|--------------------------------------3-----------|
E-|--------------------------------------------------|
    co-          o-          o-          o.
    shine,      shine,      shine.

   G(/D)
e-|--------------3-----------------------3-----------|
B-|--------------3-----------------------3-----------|
G-|--4--4--4--4--4--4--4--4--4--4--4--4--4--4--4--4--|
D-|--5--5--5--5--5--5--5--5--5--5--5--5--5--5--5--5--|
A-|--------5-----------5-----5-----5-----------5-----|
E-|--------------------------------------------------|
    Da-da-dan-da    da-dan-da   da-dan-da       and
                                                Like

   F(/C)
e-|--------------1-----------------1-----------1-----|
B-|--------------1-----------------1-----------1-----|
G-|--2--2--2--2--2-----------0--2--2-----0--2--2-----|
D-|--3--3--3--3--3--------3--3--------3--3-----------|
A-|--------3--------------3-----------3--------------|
E-|--------------------------------------------------|
   here   I    am,                               The
   it  shines on me                              The

     C                     F(/C)
e-|--------------------------------------1-----------|
B-|--------------1-----------------------1-----------|
G-|--------0-----0-----0-----2-----2-----2-----2-----|
D-|--2--2--2--2--2--2--2--2--3--3--3--3--3--3--3--3--|
A-|--3--3--3--3--3--3--3--3--3--3--3--3--3--3--3--3--|
E-|--------------------------------------------------|
    only living boy in  New      York.
    only living boy in  New      York.

                             C
e-|--------1--1--1-----1-----------------0-----------|
B-|--------1--1--1-----1-----------------1-----------|
G-|--------2-----2-----2-----------------0-----2-----|
D-|--2-----2-----2-----2-----2-----2-----2-----3--3--|
A-|--3-----------------------3-----3-----3-----3--3--|
E-|--------------------------------------------------|

e-|--------0--0--------------|
B-|--------1--1--1-----1-----|
G-|--------0-----0-----0-----|
D-|--2-----2-----0-----2-----|
A-|--3-----------------3-----|
E-|--------------------------|
                           I

e-|--0-----------0-----------0-----------0-----------|
B-|--1-----------1-----------1-----------1-----------|
G-|--0-----0--0--0-----0--0--0-----0--0--0-----0--0--|
D-|--2-----2--2--2-----2--2--2-----2--2--2-----2--2--|
A-|--3-----3--3--3-----3--3--3-----3--3--3-----3--3--|
E-|--------------------------------------------------|
     get     the news   I  need  on  the weather re-

 F/C
e-|--1-----------1-----------------------------------|
B-|--1-----------1-----------1-----------1-----------|
G-|--2-----2--2--2--------2--2--2--2--2--2--2--2--2--|
D-|--3-----3--3--3--------3--3--3--3--3--3--3--3--3--|
A-|--3-----3--3--3-----------3-----------3-----------|
E-|--------------------------------------------------|
 port.                       I                   I can

  C
e-|--------------0-----------------------0-----------|
B-|--------------1-----------------------1-----------|
G-|--0-----0-----0-----0-----0-----0-----0-----0-----|
D-|--2--2--2--2--2--2--2--2--2--2--2--2--2--2--2--2--|
A-|--3--3--3--3--3--3--3--3--3--3--3--3--3--3--3--3--|
E-|--------------------------------------------------|
  gather all the news   I   need  on the weather  re-

 F/C
e-|--------------1-----------------1-----------1-----|
B-|--------------1-----------------1-----1-----1-----|
G-|--2-----2-----2-----------0--2--2-----0-----2-----|
D-|--3--3--3--3--3--------3--3--3--------3-----------|
A-|--3--3--3--3--3--------3--3-----------3-----------|
E-|--------------------------------------------------|
    port.

  C
e-|--------------0-----------------------0-----------|
B-|--------------1-----------------------1-----------|
G-|--0-----0-----0-----0-----0-----0-----0-----0-----|
D-|--2--2--2--2--2--2--2--2--2--2--2--2--2--2--2--2--|
A-|--3--3--3--3--3--3--3--3--3--3--3--3--3--3--3--3--|
E-|--------------------------------------------------|
     Hey,                     I've got  nothing to

     F          F/E         Dm7        Dm7/C
e-|--------1--1--------1--1--------1--1--------1--1--|
B-|--------1--1--------1--1--------1--1--------1--1--|
G-|--------2-----------0-----------2-----------2-----|
D-|--3-----------2-----------0-----------------------|
A-|--------------------------------------3-----------|
E-|--------------------------------------------------|
     do         to    -     day         but

   G(/D)
e-|--------------3-----------------------3-----------|
B-|--------------3-----------------------3-----------|
G-|--4--4--4--4--4--4--4--4--4--4--4--4--4--4--4--4--|
D-|--5--5--5--5--5--5--5--5--5--5--5--5--5--5--5--5--|
A-|--------5-----------5-----5-----5-----------5-----|
E-|--------------------------------------------------|
 smile.  Da-dan-da    da-dan-da   da-dan-da       And

   F(/C)
e-|--------------1-----------------1-----------1-----|
B-|--------------1-----------------1-----------1-----|
G-|--2--2--2--2--2--2--2-----0--2--2-----0--2--2-----|
D-|--3--3--3--3--3--3--3--3--3--------3--3-----------|
A-|--------3--------------3-----------3--------------|
E-|--------------------------------------------------|
   here   I    am,                               The

     C                     F(/C)
e-|--------------------------------------1-----------|
B-|--------------1-----------------------1-----------|
G-|--------0-----0-----0-----2-----2-----2-----2-----|
D-|--2--2--2--2--2--2--2--2--3--3--3--3--3--3--3--3--|
A-|--3--3--3--3--3--3--3--3--3--3--3--3--3--3--3--3--|
E-|--------------------------------------------------|
    only living boy in  New      York.

                             A          A7
e-|--------1--1--1-----1-----0-----------0-----------|
B-|--------1--1--1-----1-----2-----------2-----------|
G-|--------2-----2-----2-----2---strum---0---strum---|
D-|--2-----2-----2-----2-----2-----------2-----------|
A-|--3-----------------------0-----------0-----------|
E-|--------------------------------------------------|

   Asus4         A           Dm
e-|--0-----------5-----------------------------------|
B-|--3-----------5-----------6-----------6-----------|
G-|--2---strum---6---strum---7---strum---7---strum---|
D-|--2-----------7-----------7-----------7-----------|
A-|--0-----------7-----------5-----------5-----------|
E-|--------------5-----------------------------------|
                             Half of the time we're

     G                       C
e-|--------------------------------------------------|
B-|--3-----------3-----------5-----------5-----------|
G-|--4---strum---4---strum---5---strum---5---strum---|
D-|--5-----------5-----------5-----------5-----------|
A-|--5-----------5-----------3-----------3-----------|
E-|--3-----------3-----------------------------------|
    gone but we don't know where, And we don't know

   F(/C)
e-|--------------1-----------------1-----------1-----|
B-|--------------1-----------------1-----------1-----|
G-|--2--2--2--2--2-----------0--2--2-----0--2--2-----|
D-|--3--3--3--3--3--------3--3--------3--3-----------|
A-|--------3--------------3-----------3--------------|
E-|--------------------------------------------------|
    where.

  C
e-|--------------0-----------------------0-----------|
B-|--------------1-----------------------1-----------|
G-|--0-----0-----0-----0-----0-----0-----0-----0-----|
D-|--2--2--2--2--2--2--2--2--2--2--2--2--2--2--2--2--|
A-|--3--3--3--3--3--3--3--3--3--3--3--3--3--3--3--3--|
E-|--------------------------------------------------|
    Aaah ...

Проигрыш:

     C
e-|--------------0-----------------------------------|
B-|--------------1-----------------------------------|
G-|--------------0-----------------0-h2--0-----------|
D-|--2-----------2-----------0-h2----------h2--0-h2--|
A-|--3-----------3-----------------------------------|
E-|--------------------------------------------------|

e-|--------------------------------------------------|
B-|--------------------------------------------------|
G-|--------------0-----------------0-h2--0-----------|
D-|--0-h2--------2-----------0-h2----------h2--0-h2--|
A-|--------3-----3-----------------------------------|
E-|--------------------------------------------------|

           C Dsus4add9 C   F(/C)
e-|--------0-----0-----0-----1-----------1-----------|
B-|--------1-----3-----1-----1-----------1-----------|
G-|--0-----0-----0-----0-----2-----------2-----------|
D-|--2-----2-----4-----2-----3-----------3-----------|
A-|--3-----3-----5-----3-----3-----------3-----------|
E-|--------------------------------------------------|
Пол Саймон
"Bridge Over Troubled Water", 1970