Mrs. Robinson

Каподастр на 3 ладу
Первая гитара играет аккорды, вторая - проигрыши.

Проигрыш 1:
  E7
|-----------------|
|-----------------|
|-----------------|
|-----------------|
|-----------5--h7-|
|---0h5h7---------|

Проигрыш 2:
 E7
|-----------------|-----------------|-----------------|
|-----------------|-----------------|-5-----8p7p5-----|
|-----------------|----/4-------7---|-----------------|
|-----------------|-----------------|-----------------|
|-----------5--h7-|-----------------|-----------------|
|---0h5h7---------|-----------------|-----------------|

|-----------------|-----------------|
|-----------------|-----------------|
|-----------------|-----------------|
|-------5---------|---5-----5-------|
|---------7p5-7~--|-------7-----7---|
|-----------------|-----------------|

Проигрыш 3:
   A7
|-----------------|
|-----------------|
|-----------------|
|-------------5h7-|
|---------5h7-----|
|-----5h7---------|

Проигрыш 4а:
   Am
|-----------------|
|-----8~----------|
|-----8~----------|
|-----------------|
|-----------------|
|-----------------|

Проигрыш 4б:
  Am                                  E7
|-----------------|-----------------|-----------------|
|-----8~------6---|-5~--------------|-----------------|
|-----8~------7---|-5~----------7---|-4---------------|
|-----------------|-----------------|-----------------|
|-----------------|-----------------|-----------------|
|-----------------|-----------------|-----------------|

Завершающий проигрыш:
  E7
|-----------------|-----------------|-----------------|-----------------|
|-----------------|-----------------|-5-----8p7p5-----|-----------------|
|-----------------|----/4-------7---|-----------------|-----------------|
|-----------------|-----------------|-----------------|-------6\5--p5---|
|-----------5---7-|-----------------|-----------------|-------6\5h7p5---|
|---0h5h7---------|-----------------|-----------------|-----------------|

|-----------------|-----------------|-----------------|-----------------|
|-----------------|-----------------|-----------------|-----------------|
|-----------------|-----------------|-----------------|-----------------|
|---5-----5-----7-|-----5-------7---|---5-----5-----7-|-----5-------5---|
|---5-----5-----7-|-----5-------7---|---5-----5-----7-|-----5-------5---|
|-0-----0-----0---|---0-----0-------|-0-----0-----0---|---0-------------|

  B
|-----------------|-----------------|
|-----------------|-----------------|
|---4-----4-----4-|-----4-------4---|
|---4-----4-----4-|-----4-------4---|
|-2-----2-----2---|---2-------------|
|-----------------|-----------------|

Вступление:
| Проигрыш 1 ............ | Проигрыш 1 ............ |
| E7(022130) |            |            |            |

| Проигрыш 1 ............ | Проигрыш 1 ............ |
| E7         |            |            |            |

I
| Riff #2....................................................... |
| E7         |            |            |            |            |
  Deet dee dee dee

|            |            |            | Проигрыш 3 |
| A7(x02223) |            |            |            |
  Do do do do

|            |            |            | Проигрыш 4а ........... |
| D7         | G          | C    C/B   | Am         |            |
  Dee dee dee dee

| E7         |            | D7         |

Припев:
              G         Em
And here's to you, Mrs. Robinson
G               Em                 C    C/B C/A C/G
Jesus loves you more than you will know
      D  D/C
Wo wo wo
D/B D/A       G            Em
God bless you please, Mrs. Robinson
G               Em                 C    C/B C/A
Heaven holds a place for those who pray
C/G     D   D/C
Hey hey hey
              | Проигрыш 1 ............ | Проигрыш 1 ............ |
| D/B  D/A    | E7         |            |            |            |
       Hey hey  hey

II (вместо проигрыша 4а стоит 4б)

We'd like to know a little bit about you for our files.
We'd like to help you learn to help yourself.
Look around you, all you see are sympathetic eyes.
Stroll around the grounds until you feel at home.


Припев.

III (вместо проигрыша 4а стоит 4б)

Hide it in a hiding place where no one ever goes.
Put it in you pantry with your cupcakes.
It's a little secret, just the Robinsons' affair.
Most of all, you've got to hide it from the kids.

Припев:

Coo coo ca-choo, Mrs. Robinson,
Jesus loves you more than you will know (Wo wo wo).
God bless you, please, Mrs. Robinson,
Heaven holds a place for those who pray
(Hey hey hey, hey hey hey).

IV (вместо проигрыша 4а стоит 4б)

Sitting on a sofa on a Sunday afternoon,
Going to the candidates' debate,
Laugh about it, shout about it, when you've got to choose,
Every way you look at it you lose.

Припев:

Where have you gone, Joe DiMaggio?
A nation turns its lonely eyes to you (Ooo ooo ooo).
What's that you say, Mrs. Robinson?
"Joltin' Joe has left and gone away"
(Hey hey hey, hey hey hey).

Завершение:

| Завершающий проигрыш ............................ |
| E7         |            |            |            |

| ................................................. |
| E7         |            |            |            |

| ........................| Проигрыш 1 ............ |
| B          |            | E7                      |
Пол Саймон
"Bookends", 1968