Jonah

Каподастр на 6 ладу

Вступление

  Am          slide D                             Bm7
|-----------------|-----------------|-----------------|-----------------|
|-----5-----5-----|-7-----7-----7---|-----5-----5-----|-3-----3-----3---|
|---5-----5-----5s7-----7-----7-----|---5-----5-----4-|-----4-----4-----|
|-----------------|-----------------|-----------------|-----------------|
|-0-----0-----0---|---0-----0-----0-|-0-----0-----0---|---0-----0-----0-|
|-----------------|-----------------|-----------------|-----------------|

  Am          slide D                             Bm7
|-----------------|-----------------|-----------------|-----------------|
|-----5-----5-----|-7-----7-----7---|-----5-----5-----|-3-----1-----0---|
|---5-----5-----5s7-----7-----7-----|---5-----5-----4-|-----2-----0-----|
|-----------------|-----------------|-----------------|-----------------|
|-0-----0-----0---|---0-----0-----0-|-0-----0-----0---|---0-----0-----0-|
|-----------------|-----------------|-----------------|-----------------|

I

  Am                Abdim             Gmaj7
|-----------------|-----------------|-----------------|-----------------|
|-----5-----5-----|-----5-----5-----|-----3-----3-----|-----3-------3---|
|---5-----5-----5-|---4-----4-----4-|---4-----4-----4-|---4-------3-----|
|-----------------|-----------------|-----------------|-----------------|
|-0-----0-----0---|-----------------|-----------------|-4-----4--3----3-|
|-----------------|-4-----4-----4---|-3-----3-----3---|-----------------|
      Half an hour, change your.......tune up                    sizing..

  Fmaj7                               Am                Dsus2
|-----0-----0-----|-----------------|-----------0-----|-------0---------|
|-----------------|-----3-------3---|-------1---------|-----3---------0-|
|---2-----2-----2-|---2-------1-----|-----2-----------|---2---------0---|
|-----------------|-----------------|---2-----------0-|-0-------2h3-----|
|-----------------|-1-----1---------|-0---------------|-----------------|
|-1-----1-----1---|---------0-----0-|-----------------|-----------------|
  room up,                  checking..bars

II

  Am                Abdim             Gmaj7
|-----------------|-----------------|-----------------|-----------------|
|-----5-----5-----|-----5-----5-----|-----3-----3-----|-----3-------3---|
|---5-----5-----5-|---4-----4-----4-|---4-----4-----4-|---4-------3-----|
|-----------------|-----------------|-----------------|-----------------|
|-0-----0-----0---|-----------------|-----------------|-4-----4--3----3-|
|-----------------|-4-----4-----4---|-3-----3-----3---|-----------------|
      Local girls,unspoken conver----sation.                     misinfor..

  3/4 Fm7      4/4   Bb7         D#                D#aug
|-------------|-------1-------1-|-----------------|-----------------|
|-------1-----|-----3-------3---|-----4-----4-----|-----4-----4-----|
|-----1-------|---1-------1-----|---3-----3-----3-|---4-----4-----4-|
|---1-------1-|-----------------|-1-----1-----1---|-1-----1-----1---|
|-------------|-1-------1-------|-----------------|-----------------|
|-1-------1---|-----------------|-----------------|-----------------|
  ation         plays         guitar                          They say

Припев

  Cm                Ab                Dm7-5             G7
|---------3-------|-----------------|-----------------|-----------------|
|-------4---4-----|-------4-------4-|-6---6---6-6-----|-------------3---|
|-----5-------5---|-----5-------5---|-5---5---5-5-----|---------4-------|
|---5-----------5-|---6-------6-----|-6---6---6-6-----|-----5-----------|
|-3---------------|-----------------|-5---5---5-5-----|-----------------|
|-----------------|-4-------4-------|-----------------|-3---------------|
     Jonah he was   swallowed by a    whale                       but I

  Bmaj7             Bm7     E7        Amaj7             A7
|-2-----2-2-------|-------------0---|-------0---------|---------0-------|
|-4-----4-4-------|-----3-----------|-----2-----2-----|-------2---------|
|-3-----3-3-------|---2-------1-----|---1---------1---|-----0-----------|
|-4-----4-4-------|-----------------|-----------------|---2-------------|
|-2-----2-2-------|-2-----2---------|-0---------------|-0---------------|
|-----------------|---------0-----0-|-----------------|-----------------|
  say    theres no  truth to that     tale                         I know

  Dmaj7             G7 (strum)        Cmaj7             Fmaj7
|-1-----1-1-------|-----------------|-0---0-0-0-------|-------------0---|
|-1-----1-1-------|-3---------------|-0---0-0-0-------|---------1-------|
|-2-----2-2-------|-4---------------|-0---0-0-0-------|-------2---------|
|-0-----0-0-------|-3---------------|-2---2-2-2-------|-2-3-------------|
|-0-----0-0-------|-5---------------|-3---3-3-3-------|-----------------|
|-----------------|-3---------------|-----------------|-----------------|
      Jonah he was      swallowed by a song

Затем идет такт тишины, а потом снова вступление, но синкопированное.

III куплет (как I)
IV куплет  (как II)
Припев

Интерлюдия

  Amaj7                               Dmaj7             D/G#
|-0---------------|-0---------------|-2---------------|-2---------------|
|-2---------------|-2---------------|-2---------------|-3---------------|
|-1---------------|-1---------------|-2---------------|-2---------------|
|-2---------------|-2---------------|-0---------------|-----------------|
|-0---------------|-0---------------|-0---------------|-----------------|
|-----------------|-----------------|-----------------|-4---------------|
   Here's to all the boys who came   a            long       carrying

  Gmaj7             F#7               Bm7               E7
|-3---------------|-2---------------|-2---------------|-0---------------|
|-3---------------|-2---------------|-3---------------|-3---------------|
|-4---------------|-3---------------|-2---------------|-1---------------|
|-4---------------|-2---------------|-4---------------|-2---------------|
|-5---------------|-4---------------|-2---------------|-2---------------|
|-3---------------|-2---------------|-----------------|-0---------------|
  soft  guitars and cardboard cases   all               night

  D#m7-5            Dmaj7             Bm7               E7
|-2---------------|-2---------------|-2---------------|-0---------------|
|-2---------------|-2---------------|-3---------------|-3---------------|
|-2---------------|-2---------------|-2---------------|-1---------------|
|-1---------------|-0---------------|-4---------------|-2---------------|
|-----------------|-----------------|-2---------------|-2---------------|
|-----------------|-----------------|-----------------|-0---------------|
  long                                  Do you wonder where those boys have

  D#m7-5            Dmaj7             Bm7               E7
|-2---------------|-2---------------|-2---------------|-0---------------|
|-2---------------|-2---------------|-3---------------|-3---------------|
|-2---------------|-2---------------|-2---------------|-1---------------|
|-1---------------|-0---------------|-4---------------|-2---------------|
|-----------------|-----------------|-2---------------|-2---------------|
|-----------------|-----------------|-----------------|-0---------------|
  gone                              Do you wonder where those boys have gone

И затихающие Amaj7 и Dmaj7

Half an hour change your strings and tune up
Sizing the room up
Checking the bar
Local girls unspoken conversation
Misinformation plays guitar

     They say Jonah he was swallowed by a whale
     But I say there's no truth to that tale
     I know Jonah
     He was swallowed by a song

No one gives their dreams away too lightly
They hold them tightly
Warm against cold
One more year of traveling 'round this circuit
Then you can work it into gold

     They say Jonah he was swallowed by a whale
     But I say there's no truth to that tale
     I know Jonah
     He was swallowed by a song

Here's to all the boys who came along
Carrying soft guitars in cardboard cases
All night long
Do you wonder where those boys have gone?
Do you wonder where those boys have gone?
Пол Саймон
"One-Trick Pony", 1980