I Do It for Your Love

Вступление

  E(no 3rd)(add D)  Bm11              A7                D6
|-------0-------0-|-------0---------|-------0---------|-------2---------|
|-----3---3---3---|-----3---3-------|-----2---2---2-1-|-----0---0-------|
|---4-------4-----|---2-------2---2-|---0-------0-0---|---2-------2---0-|
|-----------------|-----------------|-----------------|-0-----------0---|
|-----------------|-2-----------2---|-0---------------|-----------------|
|-0---------------|-----------------|-----------------|-----------------|

  Ebdim7  Gbdim7    Em                Bbdim7  Am        D9
|-------2-------5-|-------12--------|-----------------|-----------------|
|-----1-------4---|-----12--12--12--|-----5-------5---|-----5-----5-----|
|---2-------5-----|---12------12----|---6-------5-----|---5-----5-----5-|
|-1-------4-------|-----------------|-----------------|-------4---------|
|-----------------|-----------------|-----------------|-5-----------5---|
|-----------------|-12------------0-|-6-----6-5-----5-|-----------------|

1

  E(no 3rd)(add D)  Bm11              A7                D6
|-------0---------|-------0---------|-------0---------|-------2---------|
|-----3-------3---|-----3-------3---|-----2-------2---|-----0---0-------|
|---4-------4-----|---2-------2-----|---0-------0-----|---2-------2---0-|
|-----------------|-----------------|-----------------|-0-----------0---|
|-----------------|-2-------2-----2-|-0-------0-----0-|-----------------|
|-0-------0-----0-|-----------------|-----------------|-----------------|
        We were married on a rainy day     The sky was yellow and the grass was grey

  Ebdim7  Gbdim7    Em                Bbdim7  Am        D9
|-------2-------5-|---------3-------|-----------------|-----------------|
|-----1-------4---|-------0---0-----|-----5-------5---|-----5-----5-----|
|---2-------5-----|-----0-------0---|---6-------5-----|---5-----5-----5-|
|-1-------4-------|---2-------------|-----------------|-------4---------|
|-----------------|-----------------|-----------------|-5-----------5---|
|-----------------|-0-------------0-|-6-----6-5-----5-|-----------------|
    We signed the papers and we.. I   do   it for  your love drove away

2

  E(no 3rd)(add D)  Bm11              A7                D6
|-------0---------|-------0---------|-------0---------|-------2---------|
|-----3-------3---|-----3-------3---|-----2-------2---|-----0---0-------|
|---4-------4-----|---2-------2-----|---0-------0-----|---2-------2---0-|
|-----------------|-----------------|-----------------|-0-----------0---|
|-----------------|-2-------2-----2-|-0-------0-----0-|-----------------|
|-0-------0-----0-|-----------------|-----------------|-----------------|
     The rooms were musty and {...}     all that winter we shared a cold

  Ebdim7  Gbdim7    Em                Bbdim7  Eb7       Ab      Ab+
|-------2-------5-|---------3-------|-----------------|-------4-------4-|
|-----1-------4---|-------0---0-----|-----5-------8---|-----4---5---5---|
|---2-------5-----|-----0-------0---|---6-------6-----|---5-------5-----|
|-1-------4-------|---2-------------|-----------------|-----------------|
|-----------------|-----------------|---------6-----6-|-----------------|
|-----------------|-0-------------0-|-6-----6---------|-4---------------|
    Drank all the orange {...}    I   do   it for  your love

Припев

  Dbm               Adim7             Db      Dbmaj7    Gb
|---------4-------|-----------------|-------4---------|-----------------|
|-------5-------5-|-------4---4-----|-----6-------6---|-2-2-2-2-2-2-2-2-|
|-----6-------6---|-----5---5-----5-|---6-------5---5-|-3-3-3-3-3-3-3-3-|
|---6-------6-----|---4-------------|-----------------|-4-4-4-4-4-4-4-4-|
|-4---------------|-----------------|-4-------4-------|-----------------|
|-----------------|-5-----------5---|-----------------|-2-2-2-2-2-2-2-2-|
        Found a rug in an old junk shop, brought it home to you

  Bbm               Adim7             Cm7-5   B7        Bb7
|---------1-------|-----------------|-----------------|-----------------|
|-2-----2-------2-|-------1---1-----|-4---4---4---4---|-3---3---3---3-3-|
|-3---3-------3---|-----2---2-----2-|-3---3---2---2---|-1---1---1---1-1-|
|-3-3-------3-----|---1-------------|-4---4---4---4---|-3---3---3---3-3-|
|-1---------------|-----------------|-3-3-----2-2-----|-1-1---1---1-----|
|-----------------|-2-----------2---|-----------------|-----------------|
     Along the way the colours ran the orange bled the blue

Затем идёт соло на губной гармошке. Саймон играет аккорды куплета до Em
по два раза, несколько более боем, чем в куплете. Затем снова на перебор
с Bbdim7 и снова в припев.

3

  E(no 3rd)(add D)  Bm11              A7                D6
|-------0---------|-------0---------|-------0---------|-------2---------|
|-----3-------3---|-----3-------3---|-----2-------2---|-----0---0-------|
|---4-------4-----|---2-------2-----|---0-------0-----|---2-------2---0-|
|-----------------|-----------------|-----------------|-0-----------0---|
|-----------------|-2-------2-----2-|-0-------0-----0-|-----------------|
|-0-------0-----0-|-----------------|-----------------|-----------------|
        The sting of reason the splash of tears.    The northern and the southern hemispheres.

  Ebdim7  Gbdim7    Em                Bbdim7  Am7
|-------2-------5-|---------3-------|-----------------|-------5---------|
|-----1-------4---|-------0---0-----|-----5-------5---|-----5-----5-----|
|---2-------5-----|-----0-------0---|---6-------5-----|---5-----5-----5-|
|-1-------4-------|---2-------------|-----------------|-----------------|
|-----------------|-----------------|-----------------|-5-----------5---|
|-----------------|-0-------------0-|-6-----6-5-----5-|-----------------|
    Love emerges and it disappears    I   do   it for  your love

  Am7               G                 Gmaj7
|-------5---------|---------3-------|-----------------|-----------------||
|-----5---------5-|-------3---------|---3-3---3-3---3-|-3---3-3---3-----||
|---5---------5---|-----4-----------|---4-4---4-4---4-|-4---4-4---4-----||
|-----------4-----|---5-------------|---4-4---4-4---4-|-4---4-4---4-----||
|---------5-------|-----------------|-----------------|-----------------||
|-5---------------|-3---------------|-3---------------|-------------3---||
   I do it for your love

Последние два такта несущественны, Про просто наигрывает их, закончив песню на G.

{ Rich Kent r.p.kent@dur.ac.uk }
Пол Саймон
"The Paul Simon Special", 1977