For Emily, Whenever I May Find Her

Каподастр на 3 ладу, 12-струнная гитара, 3...6 пары в октаву

Куплет

 Dsus2
|----0-----0-----0-----0-----0-----0-----0-----0-|
|------------------------------------------------|
|-------2-----------2-----------2-----------2----|
|-0-----------0-----------0-----------0----------|
|------------------------------------------------|
|------------------------------------------------|

|---0----0-----0------0-----0-----0-----0------0-|
|------------------------------------------------|
|------0-----------0------------0-----------0----|
|-0----------0------------0-----------0----------|
|------------------------------------------------|
|------------------------------------------------|

 Dsus2
|----0-----0-----0-----0-----0-----0-----0-----0-|
|------------------------------------------------|
|-------2-----------2-----------2-----------2----|
|-0-----------0-----------0-----------0----------|
|------------------------------------------------|
|------------------------------------------------|
                What a dream       I     had
                I wandered empty streets down
                And when you ran to me your

 G6
|----0-----------------------------------0-----0-|
|----------0-----0-----------0-----0-------------|
|----------0-----------0--------------------0----|
|-------0-----------0----------------------------|
|------------------------------------------------|
|-3-----------3-----------3-----2-----0----------|
              Pressed in  or-  gan-  dy
              Past the  shop   disp- lays
              Cheeks flushed with the night

 Dsus2
|----0-----0-----0-----0-----0-----0-----0-------|
|----------------------------------------------0-|
|-------2-----------2-----------2-----------2----|
|-0-----------0-----------0-----------0----------|
|------------------------------------------------|
|------------------------------------------------|
              Clothed in        crinoline
              I heard cathedral bells
              We walked on frosted fields

 Cmaj9
|----0-----------0-----------0-----------0-------|
|----------0-----------0-----------0-----------0-|
|-------0-----------0-----------0-----------0----|
|------------------------------------------------|
|-3-----------3-----------3-----------3----------|
|------------------------------------------------|
            Of smoky       burgandy
            Tripping down the alleyways
            Of juniper and lamplight

  G6                      A
|-----------------------------------------------------------------------|
|----0-----------0----------2-----------2-----------2-----------2-------|
|----------0-----------0-----------2----------2-----------2-----------2-|
|-------0-----------0-----------2----------2-----------2-----------2----|
|-------------------------0-----------0----------0-----------0----------|
|-3-----------3---------------------------------------------------------|
  Softer      than        the rain
  As          I           walked on
  I           held        your hand

Проигрыш

Аккорды показаны выше, в начале куплета просто D5 - Dsus4 - D. Конец проигрыша:
  Cmaj7                   G
|-0-----------------------------3----------------|
|-0-----------------------------0--------0-------|
|-0--2--0-----0-----------------0--------------0-|
|-2--------4-----4--2--0--------0-----------0----|
|-3----------------------------------------------|
|-------------------------3-----------3----------|

     A
|------------------------------------------------|
|----2-----------2-----------2-----------2-------|
|----------2-----------2-----------2-----------2-|
|-------2-----------2-----------2-----------2----|
|-0------------0----------0------------0---------|
|------------------------------------------------|

Куплет

And when I awoke
And felt you warm and near
I kissed you honey hair
With my grateful tears

  G                       A
|-------------------------------------------------|
|----0-----------0-----------2-----------2--------|
|----------0-----------0-----------2-----------2--|
|-------0-----------0-----------2-----------2-----|
|-------------------------0------------0----------|
|-3-----------3-----------------------------------|
              Oh I        love    you

|-------------------------------------------------|
|----2-----------2-----------2-----------2--------|
|----------2-----------2-----------2-----------2--|
|-------2-----------2-----------2-----------2-----|
|-0-----------0-----------0-----------0-----------|
|-------------------------------------------------|
  girl

C    G
  Oh how I love

 A7sus4/F#
|---------------------------------------------------|
|----3-----3-----3-----3-----3-----3-----3-----3----|
|-------0-----------0-----------0-----------0-----0-|
|-------0-----------0-----------0-----------0-----0-|
|-------------------------------------------------0-|
|-2-----------2-----------2-----------2-----------2-|
 you
Пол Саймон
"Parsley, Sage, Rosemary and Thyme", 1966
Страница о песне