Fifty Ways to Leave Your Lover

Эта табулатура не описывает ритм.
куплет - 1 гитара

    G6                D               Cmaj7             B7-9  B7  Em
e|--0-----------------2----------------0------------------2---2---0---|
B|--0-----------------3----------------0------------------1---0---0---|
G|--0-----------------2----------------0------------------2---2---0---|
D|--------------------0----------------2------------------1---1---2---|
A|-------------------------------------3------------------2---2-------|
E|--3-----------------------------------------------------------------|
      "The problem is all inside your head", she said to me

                   D#dim7      F#dim7           B+
e|-------------------2-----------5--------------3---------------------|
B|-------------------1-----------4--------------4---------------------|
G|-------------------2-----------5--------------4---------------------|
D|-------------------1-----------4--------------5---------------------|
      The answer is easy if you take it logically

                G6                  D             C
e|---------------3------------------2-------------0-------------------|
B|---------------5------------------3-------------1-------------------|
G|---------------4------------------2-------------0-------------------|
D|---------------5------------------0-------------2-------------------|
A|------------------------------------------------3-------------------|
    I'd like to help you in your struggle to be free

                B7    Em        Am                 Em
e|---------------2-----0---------0------------------0-----------------|
B|---------------0-----0---------1------------------0-----------------|
G|---------------2-----0---------2------------------0-----------------|
D|---------------1-----2---------2------------------2-----------------|
A|---------------2---------------0------------------------------------|
   There must be          fifty ways to leave your lover

куплет - 2 гитара

      G6        D      Cmaj7    B7-9      Em      D#dim7   F#dim7     B+
e|-----3--------5--------7--------8--------7--------5--------5--------3--(2)-|
B|-----5--------7--------5--------7--------8--------4--------4--------0------|
G|-----4--------7--------5--------8--------9--------5--------5--------0------|
D|-----5--------0--------5--------7--------9--------4--------4--------1------|
A|--------------------------------------------------------------------2------|

      G6        D      Cmaj7    B7-9      Em        C       Em
e|-----3--------5--------7--------2--------3-----------------0---------------|
B|-----5--------7--------5--------1--------5--------5--------0---------------|
G|-----4--------7--------5--------2--------4--------5--------0---------------|
D|-----5--------0--------5--------1--------5--------5--------2---------------|

проигрыш - 1 гитара         Am        Em
                    e|------0---------0-----------12---|
                    B|------1---------0-----12---------|
                    G|------2---------0--------12------|
                    D|------2---------2----------------|
                    A|------0--------------------------|

проигрыш - 2 гитара         C         Em
                    e|----------------0----------------|
                    B|------5---------0----------------|
                    G|------5---------0----------------|
                    D|------5---------2----------------|

"The problem is all inside your head", she said to me
The answer is easy if you take it logically
I'd like to help you in your struggle to be free
There must be fifty ways to leave your lover

She said, "It's really not my habit to intrude
Furthermore, I hope my meaning won't be lost or misconstrued
But I'll repeat myself at the risk of being crude
There must be fifty ways to leave your lover,
Fifty ways to leave your lover"

                         G(3)                        Bb(6)
      Just slip out the back, Jack,   Make a new plan, Stan
                        C(8)                          G(3)
      Don't need to be coy, Roy,      Just listen to me
                                                       Bb(6)
      Hop on the bus, Gus,            Don't need to discuss much
                         C(8)                            G(3)
      Just drop off the key, Lee,     And get yourself free

She said, "It grieves me so to see you in such pain,
I wish there was something I could do to make you smile again"
I said, "I appreciate that, but would you please explain
About the fifty ways"

She said, "Why don't we both just sleep on it tonight"
And I believe, in the morning you'll begin to see the light"
And then she kissed me and I realized she probably was right
There must be fifty ways to leave your lover
Fifty ways to leave your lover

      Just slip out the back, Jack...
Пол Саймон
"Still Crazy after All These Years", 1975