Cloudy

Здесь звучат 2 гитары. Первая с каподастром на 2 ладу, а вторая
с каподастром на 3 ладу. Здесь показана раскладка для первой.

  C
|-0h1p0-----------|-0h1p0-----------|-0h1p0-------------------|
|-------3---------|-------3h5p3-1---|-------3h5p3-1h3p1-0h1p0-|
|-----------------|-----------------|-------------------------|
|-----------------|-----------------|-------------------------|
|-----------------|-----------------|-------------------------|
|-----------------|-----------------|-------------------------|

|-----3-----3-----|---3-------3-----|-----3-----3-----|---3-------3-----|
|-----3---------3-|-------3-------3-|-----3---------3-|-------3-------3-|
|-----5-------5---|-----5-------5---|-----5-------5---|-----5-------5---|
|-----------------|-----------------|-----------------|-----------------|
|-----------------|-----------------|-----------------|-----------------|
|-3-------3-------|-3-------3-------|-3-------3-------|-3-------3-------|

Куплет

|-----3-----3-----|---3-------3-----|-----3-----3-----|---3-------3-----|
|-----3---------3-|-------3-------3-|-----3---------3-|-------3-------3-|
|-----5-------5---|-----5-------5---|-----5-------5---|-----5-------5---|
|-----------------|-----------------|-----------------|-----------------|
|-----------------|-----------------|-----------------|-----------------|
|-3-------3-------|-3-------3-------|-3-------3-------|-3-------3-------|
  Cloudy                                   The sky is grey and white and

  F
|-----1-----1-----|---1-------1-----|-----1-----1-----|---1-------1-----|
|-----1---------1-|-------1-------1-|-----1---------1-|-------1-------1-|
|-----2-------2---|-----2-------2---|-----2-------2---|-----2-------2---|
|-----------------|-----------------|-----------------|-----------------|
|-----------------|-----------------|-----------------|-----------------|
|-1-------1-------|-1-------1-------|-1-------1-------|-1-------1-------|
  cloudy,                                  Sometime I think it's hanging

  C       G/B                         A                 G
|-----------------|-2-2-2-2---------|-2-2-------------|-3---------------|
|-----------------|-1-1-1-1---------|-1-1-------------|-0---------------|
|-------0-------0-|-2-2-2-2--(strum)|-2-2--(strum)----|-0----(strum)----|
|-----2-------0---|-1-1-1-1---------|-1-1-------------|-0---------------|
|-3-------2-------|-----------------|-----------------|-2---------------|
|-----------------|-----------------|-----------------|-3---------------|
  down   on         me.                       And its a hitchhike a hundred

  Em                                  G                 Am
|-0---------------|-0---------------|-3---------------|-0---0-----------|
|-0---------------|-0---------------|-0---------------|-1---1-----------|
|-0---(strum)-----|-0-----(strum)---|-0---------------|-2---0h2---------|
|-2---------------|-2---------------|-0---------------|-2---2-----------|
|-2---------------|-2---------------|-2---------------|-0---------------|
|-0---------------|-0---------------|-3---------------|-----------------|
  miles.                        I'm a rag-a-muffin      child.

  Am                D7                lots of hammering on
|-0---------------|-2---2-----------|-2---2-----------|-2---------------|
|-1---------------|-1---1-----------|-1---1-----------|-1---------------|
|-2---(strum)-----|-2---0h2(-strum)-|-2---0h2---------|-2---------------|
|-2---------------|-0---------------|-0---0-----------|-0---------------|
|-0---------------|-----------------|-----------------|-----------------|
|-----------------|-----------------|-----------------|-----------------|
            Pointed finger-painted smile.

  D7                G
|-2---------------|-----------------|-----------------|-----------------|
|-1---------------|---0-------0-----|---0-------0-----|---0-------0-----|
|-2---(strum)-----|-------0-------0-|-------0-------0-|-------0-------0-|
|-0---------------|-----0-------0---|-----2-------2---|-----3-------3---|
|-----------------|-----------------|-----------------|-----------------|
|-----------------|-3-------3-------|-3-------3-------|-3-------3-------|
                  I left my shadow    waiting down the  road for me a while

  G
|-----------------|
|---0-------0-----|
|-------0-------0-|
|-----3-------3---|
|-----------------|
|-3-------3-------|

И опять ко 2 куплету, но теперь аккорд C играется с басовой нотой C,
а не G. В концовке чередуются аккорды C и F.

Cloudy
My thoughts are scattered and they're cloudy,
They have no borders, no boundaries.
They echo and they swell.
From Tolstoi to Tinker Bell.
Down from Berkeley to Carmel.
Got some picture in my pocket and a lot of time to kill.

Hey sunshine
I haven't seen you in a long time.
Why don't you show your face and bend my mind?
These clouds stick to the sky
Like floating questions, why?
And they linger there to die.
They don't know where they am going, and, my friend, neither do I.

Cloudy,
Cloudy.
Пол Саймон
"Parsley, Sage, Rosemary and Thyme", 1966