Bleecker Street

Основная причина превосходного звучания - каподастр на 9 ладу, что и
дает высокие звонкие звуки. В записи звучат две весьма похожие партии,
эта снята с гитары в левом канале. Здесь описаны вступление, первый
куплет и концовка. Промежуточные куплеты практически такие же, хотя и
есть вариации в D/F# и G/C. Впрочем, они показаны по ходу дела.

Басовая нота в D/F# зажимается большим пальцем. Басовая G в скобках в
5 такте необязательна.

Каподастр на 9 ладу
Вступление

    G                 D/F#              C                 G/C
e:|-----------------|-2---------------|-------3---------|-----------------|
B:|-0-----0---0-----|-------3---3-----|-0h1-------1-----|-----0h1---0-----|
G:|-------0---------|------(2)--------|-----0-------0---|-----------------|
D:|-----0-------0---|-----0-------0---|---------2-------|-----0h2-----0---|
A:|-----------------|-----------------|-3---------------|-----------------|
E:|-3-------3-------|-2-------2-------|-----------------|-3-------3-------|

I

    G/C               G/C               D/F#              C
e:|-----------------|-----------------|-----2-----2-----|-------3---------|
B:|-------0h1p0-----|-----0h1---0-----|-------3---------|-0h1-------1-----|
G:|-----------------|-----------------|-----------------|-----0-------0---|
D:|-----0--h2p0-0---|-----0h2-----0---|-----0-------0---|---------2-------|
A:|-----------------|-----------------|-----------------|-3---------------|
E:|-3------(3)------|-3-------3-------|-2-------2-------|-----------------|
                           Fog's rolling in     off the   East river

    G/C               G                 Am                Am/G
e:|-----------------|-----------------|---------------0-|-----------------|
B:|-----0h1---0-----|-----------0-----|-----------1-----|-----------1-----|
G:|-----------------|-------0---------|-------2---------|-------2---------|
D:|-----0h2-----0---|-----0-------0---|-----2-------2---|-----2-------2---|
A:|-----------------|-----------------|-0-------0-------|-----------------|
E:|-3-------3-------|-3-------3-------|-----------------|-3-------3-------|
    bank                      like a    shroud

    Am/F#                               G                 Em
e:|-----------0-----|-----------0-----|-----------------|---------------0-|
B:|-------1---------|-------1---------|-----0-------1---|-0---------0-----|
G:|-----------------|-----------------|-----0-----------|-0-----0---------|
D:|-----0-------0---|-----0-------0---|-----0-----------|-----2-------2---|
A:|-----------------|-----------------|-----------------|-----------------|
E:|-2-------2-------|-2-------2-------|-3-------3---2---|-0-------0-------|
                              it covers         Bleecker Street

                      B7                                  C
e:|-----------------|-----------------|-----------------|-----------------|
B:|-----------0-----|-------0---------|-4-----0---------|-------1---------|
G:|-------0---------|-----------2-----|-----------2-----|-----------0-----|
D:|-----2-------2---|-----1-------1---|-----1-------1---|-----2-------2---|
A:|-----------------|-2-------2-------|-2-------2-------|-3-------3-------|
E:|-0-------0-------|-----------------|-----------------|-----------------|
            fills the alleys                    where men sleep

                      G                                   D/F#
e:|-3---------------|-------3---------|-3---------------|-----2-----0-----|
B:|-----------1-----|-----------------|-----------0-----|-------3-------3-|
G:|-------0---------|-----------0-----|-------0---------|-----------------|
D:|-----2-------2---|-----0-------0---|-----0-------0---|-----0-------0---|
A:|-3-------3-------|-----------------|-----------------|-----------------|
E:|-----------------|-3-------3-------|-3-------3-------|-2-------2-------|
         hides the shepherd

                      Em                                  G
e:|-----2-----------|---------------0-|-----0-----------|-----------------|
B:|-----3-----------|-----------0-----|-----0-----------|-------3---------|
G:|-----2-----------|-------0---------|-----0-----------|-----------0-----|
D:|-----0-----------|-----2-------2---|-----2-----------|-----0-------0---|
A:|-----------------|-----------------|-----------------|-----------------|
E:|-2-------2---0---|-0-------0-------|-0-------0---2---|-3-------3-------|
            from the  sheep

            Em        G                                          II
e:|-2-------0-------|-----------------|-3---------------|-3---------------|
B:|-----------------|-3-----0---0-----|-------0---0-----|-------0---------|
G:|-------0-------0-|-------0---0-----|-------0---0-----|-----------0-----|
D:|-----0-------0---|-----0-------0---|-----0-------0---|-----0-------0---|
A:|-----------------|-----------------|-----------------|-----------------|
E:|-2-------0h2-----|-3-------3-------|-3-------3-------|-3-------3-------|
                                                                  Voices

Концовка

    G
e:|-----------------|-----------------|-----------------|-----------------|
B:|-------0---------|-------0---------|-------0---------|-----------------|
G:|-----------0-----|-----------0-----|-----------0-----|-----------------|
D:|-----0-------0---|-----0-------0---|-----0-------0---|-----------------|
A:|-----------------|-----------------|-----------------|-----------------|
E:|-3-------3-------|-3-------3-------|-3-------3-------|-3---------------|

Voices leaking from a sad cafe
Smiling faces try to understand
I saw a shadow touch a shadow's hand
On Bleecker Street

A poet reads his crooked rhyme
Holy holy is his sacrament
Thirty dollars pays your rent
On Bleecker Street

I heard a church bell softly chime
In a melody sustaining
It's a long road to Cainan
On Bleecker Street
Пол Саймон
"Wednesday Morning, 3 A.M.", 1964
Страница о песне