April Come She Will

Во вступлении и начале куплета скачущие триплеты, поэтому табулировать
точный ритм сложно. Ритмику лучше отслеживать по записи.

Каподастр на 1 ладу

  G/D               G6/D              G/D               G6/D
|-7---------------|-0---------------|-7---------------|-0---------------|
|---------8-------|---------8-------|---------8-------|-----------------|
|------------7----|-----7-------7---|--------7---7----|-----7-------7---|
|-0-------0---0---|-0-------0-------|-0--------0--0---|-0-------0-------|
|-----------------|-----------------|-----------------|-----------------|
|-----------------|-----------------|-----------------|-----------------|

  G/D               G6/D              D
|-7---------------|-0---------------|-5---------------|
|---------8-------|---------8-------|---------7-------|
|--------7---7----|-----7-------0---|--------7---0----|
|-0--------0--0---|-0-------0-------|-0-----------0---|
|-----------------|-----------------|-----------------|
|-----------------|-----------------|-----------------|

I

 G                 G/C     G         G                 G/C     G
|----------3-------|-----------------|--------3--------|-----------------|
|------------------|-1-------0-------|------------0----|-1-------0-------|
|--------------0---|-----0-------0---|---------0---0---|-----0-------0---|
|---------0-----0--|-2----(2)0-------|-----------------|-2-------0-------|
|------------------|-----------------|-----------------|-----------------|
|--3---------------|-----------------|-3---------------|-----------------|

  G                                                     G/C     G
|---------3-------|-3---------------|---------3-------|-----------------|
|-----------------|---------1-------|-----------------|-1-------0-------|
|------------0----|-----0-------0---|------------0----|-----0-------0---|
|--------0----0---|---------2-------|--------0----0---|-2-------0-------|
|-----------------|-----------------|-----------------|-----------------|
|-3---------------|-3---------------|-3---------------|-----------------|
   April                                                        come she

  G                 G/C               Am                Emadd4/G
|--------3--------|-----------------|-----------------|-----------------|
|------------0----|-1-------0-------|-1---------1-----|-0---------0-----|
|---------0---0---|-----0-------0---|-------2---------|-------2---------|
|-----------------|-2-------0-------|-----2-------2---|-----2-------2---|
|-----------------|-----------------|-0-------0-------|-----------------|
|-3---------------|-----------------|-----------------|-3-------3-------|
   will                                 When streams     are ripe and

  Fmaj7             Em                                  C
|-----------------|-----------------|-0---------------|-----------------|
|-1---------1-----|-0---------0-----|-----------0-----|-1---------1-----|
|-------2---------|-------0---------|-------0---------|-------0---------|
|-----2-------2---|-----2-------2---|-----2-------2---|-----2-------2---|
|-----------------|-----------------|-----------------|-3-------3-------|
|-1-------1-------|-0-------0-------|-0-------0-------|-----------------|
    swelled with rain                                   May

  Dadd4             G                 Em
|-----------------|-----------------|-----------------|-0---------------|
|-3---------3-----|-----------------|-----------0-----|-----------0-----|
|-------0-------0-|-------0---------|-------0---------|-------0---------|
|-----4-------4---|-----0-----------|-----2-------2---|-----2-------2---|
|-5-------5-------|-----------------|-----------------|-----------------|
|-----------------|-3-------3---2---|-0-------0-------|-0-------0-------|
           she will         stay

  Am                Em                Am                Em
|-----------------|-----------------|-----------------|-----------------|
|-1---------1-----|-0---------0-----|-1---------1-----|-0---------0-----|
|-------2---------|-------0---------|-------2---------|-------0---------|
|-----2-------2---|-----2-------2---|-----2-------2---|-----2-------2---|
|-0-------0-------|-----------------|-0-------0-------|-----------------|
|-----------------|-0-------0-------|-----------------|-0-------0-------|
      resting in          my              arms      again

       G
|-0----------------|
|------------------|
|-------0----------|
|-----2------------|
|------------------|
|-0-------0---2----|

II - играется так же, но вместе с нотой в скобках во втором такте

June, she'll change her tune.
In restless walks she'll prowl the night.
July, she will fly
And give no warning to her flight.

III

    G                 G/C     G         G                 G/C     G
|----------3-------|-----------------|--------3--------|-----------------|
|------------------|-1-------0-------|------------0----|-1-------0-------|
|-------------0----|-----0-------0---|---------0---0---|-----0-------0---|
|---------0----0---|-2-------0-------|-----------------|-2-------0-------|
|------------------|-----------------|-----------------|-----------------|
|--3---------------|-----------------|-3---------------|-----------------|

  G                                                     G/C     G
|---------3-------|-3---------------|---------3-------|-----------------|
|-----------------|---------1-------|-----------------|-1-------0-------|
|------------0----|-----0-------0---|------------0----|-----0-------0---|
|--------0----0---|---------2-------|--------0----0---|-2-------0-------|
|-----------------|-----------------|-----------------|-----------------|
|-3---------------|-3---------------|-3---------------|-----------------|
   August                                                       die she

  G                 G/C               Am                Emadd4/G
|--------3--------|-----------------|-----------------|-----------------|
|------------0----|-1-------0-------|-1---------1-----|-0---------0-----|
|---------0---0---|-----0-------0---|-------2-------2-|-------2-------2-|
|-----------------|-2-------0-------|-----2-------2---|-----2-------2---|
|-----------------|-----------------|-0-------0-------|-----------------|
|-3---------------|-----------------|-----------------|-3-------3-------|
   must                                 The autumn winds blow chilly

  Fmaj7             Em                                  C
|-----------------|-----------------|-0---------------|-----------------|
|-1---------1-----|-0---------0-----|-----------0-----|-1---------1-----|
|-------2-------2-|-------0---------|-------0---------|-------0---------|
|-----2-------2---|-----2-------2---|-----2-------2---|-----2-------2---|
|-----------------|-----------------|-----------------|-3-------3-------|
|-1-------1-------|-0-------0-------|-0-------0-------|-----------------|
    and cold                                            September

  D                 G                 Em
|-2---------2-----|-3---------2-----|-0---------------|-0---------------|
|-----------------|-----------------|-----------0-----|-----------0-----|
|-------3---------|-------0---------|-------0---------|-------0---------|
|-----4-------4---|-----0-------0---|-----2-------2---|-----2-------2---|
|-5-------5-------|-----------------|-----------------|-----------------|
|-----------------|-3-------3-------|-0-------0-------|-0-------0-------|
           I'll          remember

  Am                Em                D
|-----------------|-----------------|-2---------------|-2---------------|
|-1---------1-----|-0---------0-----|---------3-------|---------3-------|
|-------2---------|-------0---------|-----------2-----|-----2-------0---|
|-----2-------2---|-----2-------2---|-0-------0---0---|-0-------0-------|
|-0-------0-------|-----------------|-----------------|-----------------|
|-----------------|-0-------0-------|-----------------|-----------------|
      a love once new has              now                    grown

  G/D               G6/D              G/D               G6/D
|-7---------------|-0---------------|-7---------------|-0---------------|
|---------8-------|---------8-------|---------8-------|-----------------|
|------------7----|-----7-------7---|--------7---7----|-----7-------7---|
|-0-------0---0---|-0-------0-------|-0--------0--0---|-0-------0-------|
|-----------------|-----------------|-----------------|-----------------|
|-----------------|-----------------|-----------------|-----------------|
  old

  G/D               G6/D              D                 G
|-7---------------|-0---------------|-5---------------|-3---------------|
|---------8-------|---8-----8-------|---------7-------|-----------------|
|--------7---7----|-----7-------0---|--------7---0----|-----------------|
|-0--------0--0---|-0-------0-------|-0-----------0---|-----------------|
|-----------------|-----------------|-----------------|-----------------|
|-----------------|-----------------|-----------------|-3---------------|
Пол Саймон
"Sounds Of Silence", 1965