America (1968)

Каподастр на 3 ладу
Вступление (играть дважды с 1 и 2 дополнениями)

3/4 C           Cmaj9         Am7           C/G
|-----0-0-0-0-|-----0-0-0-0-|-----0-0-0-0-|-----0-0-0-0-|
|-----1-1-1-1-|-----1-1-1-1-|-----1-1-1-1-|-----1-1-1-1-|
|-----0-0-0-0-|-----0-0-0-0-|-----0-0-0-0-|-----0-0-0-0-|
|-----2-2-2-2-|-----0-0-0-0-|-----2-2-2-2-|-----2-2-2-2-|
|-3-----------|-2-----------|-0-----------|-------------|
|-------------|-------------|-------------|-3-----------|
  Mmm           mmm           mmm           mmm    mmm

  F                           (с дополнениями)
|-----1-1-1-1-|-----1-1-1-1-|-1---1-1-1---|-1---1-1-1---|
|-----1-1-1-1-|-----1-1-1-1-|-1---1-1-1---|-1h3-1-1-1---|
|-----2-2-2-2-|-----2-2-2-2-|-2h3-2-2-2---|-2---2-2-2---|
|-----3-3-3-3-|-----3-3-3-3-|-3---3-3-3---|-3---3-3-3---|
|-------------|-------------|-------------|-------------|
|-1-----------|-1-----------|-------------|-------------|
  Mmmmmm

I

  C             Cmaj9         Am7           C (G bass)
|-----0-0-0-0-|-----0-0-0-0-|-----0-0-0-0-|-----0-0-0-0-|
|-----1-1-1-1-|-----1-1-1-1-|-----1-1-1-1-|-----1-1-1-1-|
|-----0-0-0-0-|-----0-0-0-0-|-----0-0-0-0-|-----0-0-0-0-|
|-----2-2-2-2-|-----0-0-0-0-|-----2-2-2-2-|-----2-2-2-2-|
|-3-----------|-2-----------|-0-----------|-------------|
|-------------|-------------|-------------|-3-----------|
  Let us be     lovers we'll  marry our     fortunes

  F
|-----1-1-1-1-|-----1-1-1-1-|-1---1-1-1---|-1---1-1-1---|
|-----1-1-1-1-|-----1-1-1-1-|-1---1-1-1---|-1h3-1-1-1---|
|-----2-2-2-2-|-----2-2-2-2-|-2h3-2-2-2---|-2---2-2-2---|
|-----3-3-3-3-|-----3-3-3-3-|-3---3-3-3---|-3---3-3-3---|
|-------------|-------------|-------------|-------------|
|-1-----------|-1-----------|-------------|-------------|
  together

  C             Cmaj9         Am
|-----0-0-0-0-|-----0-0-0-0-|-----0-0-0-0-|-----0-0-0-0-|
|-----1-1-1-1-|-----1-1-1-1-|-----1-1-1-1-|-----1-1-1-1-|
|-----0-0-0-0-|-----0-0-0-0-|-----2-2-2-2-|-----2-2-2-2-|
|-----2-2-2-2-|-----0-0-0-0-|-----2-2-2-2-|-----2-2-2-2-|
|-3-----------|-2-----------|-0-----------|-0-----------|
|-------------|-------------|-------------|-------------|
  I've got some real estate   here in my    bag

  Am (с дополнением 3)        Em7
|-----0-0-0-0-|-----0-0-0-0-|-----0-0-0-0-|-----0-0-0-0-|
|-----1-1-1-1-|-----1-1-1-1-|-----0-0-0-0-|-----0-0-0-0-|
|-----2-2-2-2-|-----2-2-2-2-|-----0-0-0-0-|-----0-0-0-0-|
|-----2-2-2-2-|-----2-2-2-2-|-----0-0-0-0-|-----0-0-0-0-|
|-0-----------|-0-----------|-----2-2-2-2-|-----2-2-2-2-|
|-------------|-------------|-0-----------|-0-----------|
                                    So we   bought a pack of

  A7                          Em7
|-----0-0-0-0-|-----0-0-0-0-|-----0-0-0-0-|-----0-0-0-0-|
|-----2-2-2-2-|-----2-2-2-2-|-----0-0-0-0-|-----0-0-0-0-|
|-----0-0-0-0-|-----0-0-0-0-|-----0-0-0-0-|-----0-0-0-0-|
|-----2-2-2-2-|-----2-2-2-2-|-----0-0-0-0-|-----0-0-0-0-|
|-0-----------|-0-----------|-----2-2-2-2-|-----2-2-2-2-|
|-------------|-------------|-0-----------|-0-----------|
  cigarettes              and Mrs           Wagner

  A7                          D             C
|-----0-0-0-0-|-----0-0-0-0-|-----2-2-2-2-|-----0-0-0-0-|
|-----2-2-2-2-|-----2-2-2-2-|-----3-3-3-3-|-----1-1-1-1-|
|-----0-0-0-0-|-----0-0-0-0-|-----2-2-2-2-|-----0-0-0-0-|
|-----2-2-2-2-|-----2-2-2-2-|-0-----------|-----2-2-2-2-|
|-0-----------|-0-----------|-------------|-3-----------|
|-------------|-------------|-------------|-------------|
  pies                    and walked        off       to

  G             C             Cmaj9         Am7           C/G (с дополнением 4)
|-------------|-0---0-0-0-0-|-----0-0-0-0-|-----0-0-0-0-|-----0-0-0-0-|
|-0---1---3---|-----1-1-1-1-|-----1-1-1-1-|-----1-1-1-1-|-----1-1-1-1-|
|-------------|-----0-0-0-0-|-----0-0-0-0-|-----0-0-0-0-|-----0-0-0-0-|
|-------------|-----2-2-2-2-|-----0-0-0-0-|-----2-2-2-2-|-----2-2-2-2-|
|-----0---2---|-3-----------|-2-----------|-0-----------|-------------|
|-3-----------|-------------|-------------|-------------|-3-----------|
  look for America

  F
|-----1-1-1-1-|-----1-1-1-1-|-1---1-1-1---|-1---1-1-1---|
|-----1-1-1-1-|-----1-1-1-1-|-1---1-1-1---|-1h3-1-1-1---|
|-----2-2-2-2-|-----2-2-2-2-|-2h3-2-2-2---|-2---2-2-2---|
|-----3-3-3-3-|-----3-3-3-3-|-3---3-3-3---|-3---3-3-3---|
|-------------|-------------|-------------|-------------|
|-1-----------|-1-----------|-------------|-------------|

II (так же)

"Kathy," I said, as we boarded a Greyhound in Pittsburgh
"Michigan seems like a dream to me now."

  G                                (с дополнением 3)
|-----3-3-3-3-|-----3-3-3-3-|-----3-3-3-3-|-----3-3-3-3-|
|-----0-0-0-0-|-----0-0-0-0-|-----0-0-0-0-|-----0-0-0-0-|
|-----0-0-0-0-|-----0-0-0-0-|-----0-0-0-0-|-----0-0-0-0-|
|-----0-0-0-0-|-----0-0-0-0-|-----0-0-0-0-|-----0-0-0-0-|
|-------------|-------------|-------------|-------------|
|-3-----------|-3-----------|-3-----------|-3-----------|
  It took me    four days to hitchike from Saginaw

  D             G             D             Cmaj7
|-----2-2-2-2-|-----3-3-3-3-|-----2-2-2-2-|-----0-0-0-0-|
|-----3-3-3-3-|-----0-0-0-0-|-----3-3-3-3-|-----0-0-0-0-|
|-----2-2-2-2-|-----0-0-0-0-|-----2-2-2-2-|-----0-0-0-0-|
|-0-----------|-----0-0-0-0-|-0-----------|-----2-2-2-2-|
|-------------|-------------|-------------|-3-----------|
|-------------|-3-----------|-------------|-------------|
  I've          come      to  look   for  A-me-

                C
|-----0-0-0-0-|-----0-0-0-0-|-----0-0-0-0-|
|-----0-0-0-0-|-----1-1-1-1-|-----1-1-1-1-|
|-----0-0-0-0-|-----0-0-0-0-|-----0-0-0-0-|
|-----2-2-2-2-|-----2-2-2-2-|-----2-2-2-2-|
|-3-----------|-3-----------|-3-----------|
|-------------|-------------|-------------|
                -rica

III

  Bbmaj7
|-----1-1-1-1-|-----1-1-1-1-|-----1-1-1-1-|-----1-1-1-1-|
|-----3-3-3-3-|-----3-3-3-3-|-----3-3-3-3-|-----3-3-3-3-|
|-----2-2-2-2-|-----2-2-2-2-|-----2-2-2-2-|-----2-2-2-2-|
|-----3-3-3-3-|-----3-3-3-3-|-----3-3-3-3-|-----3-3-3-3-|
|-1-----------|-1-----------|-1-----------|-1-----------|
|-------------|-------------|-------------|-------------|
  Laughing on the bus                             playing

  C
|-----0-0-0-0-|-----0-0-0-0-|-----0-0-0-0-|-----0-0-0-0-|
|-----1-1-1-1-|-----1-1-1-1-|-----1-1-1-1-|-----1-1-1-1-|
|-----0-0-0-0-|-----0-0-0-0-|-----0-0-0-0-|-----0-0-0-0-|
|-----2-2-2-2-|-----2-2-2-2-|-----2-2-2-2-|-----2-2-2-2-|
|-3-----------|-3-----------|-3-----------|-3-----------|
|-------------|-------------|-------------|-------------|
  games with the faces

  Bbmaj7
|-----1-1-1-1-|-----1-1-1-1-|-----1-1-1-1-|-----1-1-1-1-|
|-----3-3-3-3-|-----3-3-3-3-|-----3-3-3-3-|-----3-3-3-3-|
|-----2-2-2-2-|-----2-2-2-2-|-----2-2-2-2-|-----2-2-2-2-|
|-----3-3-3-3-|-----3-3-3-3-|-----3-3-3-3-|-----3-3-3-3-|
|-1-----------|-1-----------|-1-----------|-1-----------|
|-------------|-------------|-------------|-------------|
  She said the man in the     gabardine     suit was a

  C
|-----0-0-0-0-|-----0-0-0-0-|-----0-0-0-0-|-----0-0-0-0-|
|-----1-1-1-1-|-----1-1-1-1-|-----1-1-1-1-|-----1-1-1-1-|
|-----0-0-0-0-|-----0-0-0-0-|-----0-0-0-0-|-----0-0-0-0-|
|-----2-2-2-2-|-----2-2-2-2-|-----2-2-2-2-|-----2-2-2-2-|
|-3-----------|-3-----------|-3-----------|-3-----------|
|-------------|-------------|-------------|-------------|
  spy

  F
|-----1-1-1-1-|-----1-1-1-1-|-----1-1-1-1-|-----1-1-1-1-|
|-----1-1-1-1-|-----1-1-1-1-|-----1-1-1-1-|-----1-1-1-1-|
|-----2-2-2-2-|-----2-2-2-2-|-----2-2-2-2-|-----2-2-2-2-|
|-----3-3-3-3-|-----3-3-3-3-|-----3-3-3-3-|-----3-3-3-3-|
|-------------|-------------|-------------|-------------|
|-1-----------|-1-----------|-1-----------|-1-----------|
  I said "Be    careful, his bow tie is     really a

  C             Cmaj9         Am7           C/G
|-----0-0-0-0-|-----0-0-0-0-|-----0-0-0-0-|-----0-0-0-0-|
|-----1-1-1-1-|-----1-1-1-1-|-----1-1-1-1-|-----1-1-1-1-|
|-----0-0-0-0-|-----0-0-0-0-|-----0-0-0-0-|-----0-0-0-0-|
|-----2-2-2-2-|-----0-0-0-0-|-----2-2-2-2-|-----2-2-2-2-|
|-3-----------|-2-----------|-0-----------|-------------|
|-------------|-------------|-------------|-3-----------|
  camera

  D9                          Fmaj7
|-----0-0-0-0-|-----0-0-0-0-|-----0-0-0-0-|-----0-0-0-0-|
|-----1-1-1-1-|-----1-1-1-1-|-----1-1-1-1-|-----1-1-1-1-|
|-----2-2-2-2-|-----2-2-2-2-|-----2-2-2-2-|-----2-2-2-2-|
|-----0-0-0-0-|-----0-0-0-0-|-----3-3-3-3-|-----3-3-3-3-|
|-----0-0-0-0-|-----0-0-0-0-|-----0-0-0-0-|-----0-0-0-0-|
|-2-----------|-2-----------|-1-----------|-1-----------|

IV (как 1й)

"Toss me a cigarette I think there's one in my raincoat."
"We smoked the last one an hour ago."
So I looked at the scenery, she read her magazine
And the moon rose over an open field.

5 куплет (как 2й)

"Kathy, I'm lost", I said, though I knew she was sleeping
"I'm empty and aching and I don't know why."

  G
|-----3-3-3-3-|-----3-3-3-3-|-----3-3-3-3-|-----3-3-3-3-|
|-----0-0-0-0-|-----0-0-0-0-|-----0-0-0-0-|-----0-0-0-0-|
|-----0-0-0-0-|-----0-0-0-0-|-----0-0-0-0-|-----0-0-0-0-|
|-----0-0-0-0-|-----0-0-0-0-|-----0-0-0-0-|-----0-0-0-0-|
|-------------|-------------|-------------|-------------|
|-3-----------|-3-----------|-3-----------|-3-----------|
  Counting the  cars on the   New Jersey    Turnpike. They've

 D             G             D             Cmaj7
|-----2-2-2-2-|-----3-3-3-3-|-----2-2-2-2-|-----0-0-0-0-|
|-----3-3-3-3-|-----0-0-0-0-|-----3-3-3-3-|-----0-0-0-0-|
|-----2-2-2-2-|-----0-0-0-0-|-----2-2-2-2-|-----0-0-0-0-|
|--0----------|-----0-0-0-0-|-0-----------|-----2-2-2-2-|
|-------------|-------------|-------------|-3-----------|
|-------------|-3-----------|-------------|-------------|
   All          come      to  look   for  A-mer

  D             G             D
|-----0-0-0-0-|-----0-0-0-0-|-----0-0-0-0--|
|-----0-0-0-0-|-----1-1-1-1-|-----1-1-1-1--|
|-----0-0-0-0-|-----0-0-0-0-|-----0-0-0-0--|
|-----2-2-2-2-|-----2-2-2-2-|-----2-2-2-2--|
|-3-----------|-3-----------|-3------------|
|-------------|-------------|--------------|
                ica

Концовка, вторая гитара бьет аккорды

  C             C/B           Am7           C/G
|(0)----------|-------------|-------------|---------0---|
|---------1---|---------1---|---------1---|-------1-----|
|-----0-------|-----0-------|-----0-------|-----0-------|
|-------------|-------------|-------------|-------------|
|-3-----------|-2-----------|-0-----------|-------------|
|-------------|-------------|-------------|-3-----------|

  Dm
|-------------|-------------|---------1---|-------------|
|---------3---|---------3---|-------0-----|-0---1---3---|
|-----2-------|-----2-------|-----0-------|-------------|
|-0-----------|-------------|-------------|-------------|
|-------------|-3-----------|-2-----------|-----0---2---|
|-------------|-------------|-------------|-3-----------|

Дополнение 1
  F                           C
|-------------|-------------|-------------|
|---------1---|-3b-rb---1---|-------------|
|-----0h2-----|-------------|-------------|
|-0h2---------|-------------|-------------|
|-------------|-------------|-------------|
|-------------|-------------|-------------|

Дополнение 2
  F                           C (1 куплет)
|-------------|-0-----------|-------------|
|-------0-1---|---3p1-------|-------------|
|-----0-------|-------------|-0-----------|
|---2---------|---------0h2-|-------------|
|-3-----------|-------------|-------------|
|-------------|-------------|-------------|

Дополнение 3
  Am                          Em7
|-------------|-0---0---0---|-0-----------|
|---------1---|-1---3---1---|-0-----------|
|-----0h2-----|-0---0---0---|-0-----------|
|-0h2---------|-2---0---2---|-0-----------|
|-------------|-3---2---0---|-2-----------|
|-------------|-------------|-0-----------|

Дополнение 4
  C/G           F
|-------------|-------------|-------------|
|-------------|-------------|-------------|
|-------------|-------------|-------------|
|-----0-------|-------------|-------------|
|-0h3---------|-------------|-------------|
|---------0---|-1-----------|-------------|
Пол Саймон
"Bookends", 1968
Страница о песне